ISO-10303-21;
HEADER;
/* Generated by software containing ST-Developer
 * from STEP Tools, Inc. (www.steptools.com) 
 */

FILE_DESCRIPTION(
/* description */ (''),
/* implementation_level */ '2;1');

FILE_NAME(
/* name */ 'Circle .step',
/* time_stamp */ '2025-11-19T09:15:35-07:00',
/* author */ (''),
/* organization */ (''),
/* preprocessor_version */ 'ST-DEVELOPER v20.1',
/* originating_system */ 'Autodesk Translation Framework v14.17.0.0',
/* authorisation */ '');

FILE_SCHEMA (('AUTOMOTIVE_DESIGN { 1 0 10303 214 3 1 1 }'));
ENDSEC;

DATA;
#10=MECHANICAL_DESIGN_GEOMETRIC_PRESENTATION_REPRESENTATION('',(#13),#409);
#11=SHAPE_REPRESENTATION_RELATIONSHIP('SRR','None',#419,#12);
#12=ADVANCED_BREP_SHAPE_REPRESENTATION('',(#14),#408);
#13=STYLED_ITEM('',(#428),#14);
#14=MANIFOLD_SOLID_BREP('Body1',#221);
#15=FACE_BOUND('',#44,.T.);
#16=FACE_BOUND('',#45,.T.);
#17=FACE_BOUND('',#47,.T.);
#18=FACE_BOUND('',#48,.T.);
#19=PLANE('',#265);
#20=PLANE('',#266);
#21=FACE_OUTER_BOUND('',#33,.T.);
#22=FACE_OUTER_BOUND('',#34,.T.);
#23=FACE_OUTER_BOUND('',#35,.T.);
#24=FACE_OUTER_BOUND('',#36,.T.);
#25=FACE_OUTER_BOUND('',#37,.T.);
#26=FACE_OUTER_BOUND('',#38,.T.);
#27=FACE_OUTER_BOUND('',#39,.T.);
#28=FACE_OUTER_BOUND('',#40,.T.);
#29=FACE_OUTER_BOUND('',#41,.T.);
#30=FACE_OUTER_BOUND('',#42,.T.);
#31=FACE_OUTER_BOUND('',#43,.T.);
#32=FACE_OUTER_BOUND('',#46,.T.);
#33=EDGE_LOOP('',(#139,#140,#141,#142));
#34=EDGE_LOOP('',(#143,#144,#145,#146));
#35=EDGE_LOOP('',(#147,#148,#149,#150));
#36=EDGE_LOOP('',(#151,#152,#153,#154));
#37=EDGE_LOOP('',(#155,#156,#157,#158));
#38=EDGE_LOOP('',(#159,#160,#161,#162));
#39=EDGE_LOOP('',(#163,#164,#165,#166));
#40=EDGE_LOOP('',(#167,#168,#169,#170));
#41=EDGE_LOOP('',(#171,#172,#173,#174));
#42=EDGE_LOOP('',(#175,#176,#177,#178));
#43=EDGE_LOOP('',(#179,#180,#181,#182,#183,#184,#185,#186));
#44=EDGE_LOOP('',(#187));
#45=EDGE_LOOP('',(#188));
#46=EDGE_LOOP('',(#189,#190,#191,#192,#193,#194,#195,#196));
#47=EDGE_LOOP('',(#197));
#48=EDGE_LOOP('',(#198));
#49=LINE('',#349,#59);
#50=LINE('',#352,#60);
#51=LINE('',#357,#61);
#52=LINE('',#363,#62);
#53=LINE('',#369,#63);
#54=LINE('',#375,#64);
#55=LINE('',#381,#65);
#56=LINE('',#387,#66);
#57=LINE('',#396,#67);
#58=LINE('',#402,#68);
#59=VECTOR('',#273,0.393700787401575);
#60=VECTOR('',#276,0.393700787401575);
#61=VECTOR('',#281,0.393700787401575);
#62=VECTOR('',#288,0.393700787401575);
#63=VECTOR('',#295,0.393700787401575);
#64=VECTOR('',#302,0.393700787401575);
#65=VECTOR('',#309,0.393700787401575);
#66=VECTOR('',#316,0.393700787401575);
#67=VECTOR('',#329,0.25);
#68=VECTOR('',#336,0.25);
#69=CIRCLE('',#236,0.55);
#70=CIRCLE('',#237,0.55);
#71=CIRCLE('',#239,0.5);
#72=CIRCLE('',#240,0.5);
#73=CIRCLE('',#242,0.55);
#74=CIRCLE('',#243,0.55);
#75=CIRCLE('',#245,5.);
#76=CIRCLE('',#246,5.);
#77=CIRCLE('',#248,0.55);
#78=CIRCLE('',#249,0.55);
#79=CIRCLE('',#251,0.5);
#80=CIRCLE('',#252,0.5);
#81=CIRCLE('',#254,0.55);
#82=CIRCLE('',#255,0.55);
#83=CIRCLE('',#257,5.);
#84=CIRCLE('',#258,5.);
#85=CIRCLE('',#260,0.25);
#86=CIRCLE('',#261,0.25);
#87=CIRCLE('',#263,0.25);
#88=CIRCLE('',#264,0.25);
#89=VERTEX_POINT('',#345);
#90=VERTEX_POINT('',#346);
#91=VERTEX_POINT('',#348);
#92=VERTEX_POINT('',#350);
#93=VERTEX_POINT('',#354);
#94=VERTEX_POINT('',#356);
#95=VERTEX_POINT('',#360);
#96=VERTEX_POINT('',#362);
#97=VERTEX_POINT('',#366);
#98=VERTEX_POINT('',#368);
#99=VERTEX_POINT('',#372);
#100=VERTEX_POINT('',#374);
#101=VERTEX_POINT('',#378);
#102=VERTEX_POINT('',#380);
#103=VERTEX_POINT('',#384);
#104=VERTEX_POINT('',#386);
#105=VERTEX_POINT('',#393);
#106=VERTEX_POINT('',#395);
#107=VERTEX_POINT('',#399);
#108=VERTEX_POINT('',#401);
#109=EDGE_CURVE('',#89,#90,#69,.T.);
#110=EDGE_CURVE('',#90,#91,#49,.T.);
#111=EDGE_CURVE('',#91,#92,#70,.T.);
#112=EDGE_CURVE('',#92,#89,#50,.T.);
#113=EDGE_CURVE('',#90,#93,#71,.T.);
#114=EDGE_CURVE('',#94,#93,#51,.T.);
#115=EDGE_CURVE('',#91,#94,#72,.T.);
#116=EDGE_CURVE('',#93,#95,#73,.T.);
#117=EDGE_CURVE('',#95,#96,#52,.T.);
#118=EDGE_CURVE('',#96,#94,#74,.T.);
#119=EDGE_CURVE('',#95,#97,#75,.T.);
#120=EDGE_CURVE('',#98,#97,#53,.T.);
#121=EDGE_CURVE('',#96,#98,#76,.T.);
#122=EDGE_CURVE('',#97,#99,#77,.T.);
#123=EDGE_CURVE('',#99,#100,#54,.T.);
#124=EDGE_CURVE('',#100,#98,#78,.T.);
#125=EDGE_CURVE('',#99,#101,#79,.T.);
#126=EDGE_CURVE('',#102,#101,#55,.T.);
#127=EDGE_CURVE('',#100,#102,#80,.T.);
#128=EDGE_CURVE('',#101,#103,#81,.T.);
#129=EDGE_CURVE('',#103,#104,#56,.T.);
#130=EDGE_CURVE('',#104,#102,#82,.T.);
#131=EDGE_CURVE('',#104,#92,#83,.T.);
#132=EDGE_CURVE('',#103,#89,#84,.T.);
#133=EDGE_CURVE('',#105,#105,#85,.T.);
#134=EDGE_CURVE('',#105,#106,#57,.T.);
#135=EDGE_CURVE('',#106,#106,#86,.T.);
#136=EDGE_CURVE('',#107,#107,#87,.T.);
#137=EDGE_CURVE('',#107,#108,#58,.T.);
#138=EDGE_CURVE('',#108,#108,#88,.T.);
#139=ORIENTED_EDGE('',*,*,#109,.T.);
#140=ORIENTED_EDGE('',*,*,#110,.T.);
#141=ORIENTED_EDGE('',*,*,#111,.T.);
#142=ORIENTED_EDGE('',*,*,#112,.T.);
#143=ORIENTED_EDGE('',*,*,#110,.F.);
#144=ORIENTED_EDGE('',*,*,#113,.T.);
#145=ORIENTED_EDGE('',*,*,#114,.F.);
#146=ORIENTED_EDGE('',*,*,#115,.F.);
#147=ORIENTED_EDGE('',*,*,#116,.T.);
#148=ORIENTED_EDGE('',*,*,#117,.T.);
#149=ORIENTED_EDGE('',*,*,#118,.T.);
#150=ORIENTED_EDGE('',*,*,#114,.T.);
#151=ORIENTED_EDGE('',*,*,#117,.F.);
#152=ORIENTED_EDGE('',*,*,#119,.T.);
#153=ORIENTED_EDGE('',*,*,#120,.F.);
#154=ORIENTED_EDGE('',*,*,#121,.F.);
#155=ORIENTED_EDGE('',*,*,#122,.T.);
#156=ORIENTED_EDGE('',*,*,#123,.T.);
#157=ORIENTED_EDGE('',*,*,#124,.T.);
#158=ORIENTED_EDGE('',*,*,#120,.T.);
#159=ORIENTED_EDGE('',*,*,#123,.F.);
#160=ORIENTED_EDGE('',*,*,#125,.T.);
#161=ORIENTED_EDGE('',*,*,#126,.F.);
#162=ORIENTED_EDGE('',*,*,#127,.F.);
#163=ORIENTED_EDGE('',*,*,#128,.T.);
#164=ORIENTED_EDGE('',*,*,#129,.T.);
#165=ORIENTED_EDGE('',*,*,#130,.T.);
#166=ORIENTED_EDGE('',*,*,#126,.T.);
#167=ORIENTED_EDGE('',*,*,#112,.F.);
#168=ORIENTED_EDGE('',*,*,#131,.F.);
#169=ORIENTED_EDGE('',*,*,#129,.F.);
#170=ORIENTED_EDGE('',*,*,#132,.T.);
#171=ORIENTED_EDGE('',*,*,#133,.F.);
#172=ORIENTED_EDGE('',*,*,#134,.T.);
#173=ORIENTED_EDGE('',*,*,#135,.T.);
#174=ORIENTED_EDGE('',*,*,#134,.F.);
#175=ORIENTED_EDGE('',*,*,#136,.F.);
#176=ORIENTED_EDGE('',*,*,#137,.T.);
#177=ORIENTED_EDGE('',*,*,#138,.T.);
#178=ORIENTED_EDGE('',*,*,#137,.F.);
#179=ORIENTED_EDGE('',*,*,#115,.T.);
#180=ORIENTED_EDGE('',*,*,#118,.F.);
#181=ORIENTED_EDGE('',*,*,#121,.T.);
#182=ORIENTED_EDGE('',*,*,#124,.F.);
#183=ORIENTED_EDGE('',*,*,#127,.T.);
#184=ORIENTED_EDGE('',*,*,#130,.F.);
#185=ORIENTED_EDGE('',*,*,#131,.T.);
#186=ORIENTED_EDGE('',*,*,#111,.F.);
#187=ORIENTED_EDGE('',*,*,#136,.T.);
#188=ORIENTED_EDGE('',*,*,#133,.T.);
#189=ORIENTED_EDGE('',*,*,#109,.F.);
#190=ORIENTED_EDGE('',*,*,#132,.F.);
#191=ORIENTED_EDGE('',*,*,#128,.F.);
#192=ORIENTED_EDGE('',*,*,#125,.F.);
#193=ORIENTED_EDGE('',*,*,#122,.F.);
#194=ORIENTED_EDGE('',*,*,#119,.F.);
#195=ORIENTED_EDGE('',*,*,#116,.F.);
#196=ORIENTED_EDGE('',*,*,#113,.F.);
#197=ORIENTED_EDGE('',*,*,#138,.F.);
#198=ORIENTED_EDGE('',*,*,#135,.F.);
#199=CYLINDRICAL_SURFACE('',#235,0.55);
#200=CYLINDRICAL_SURFACE('',#238,0.5);
#201=CYLINDRICAL_SURFACE('',#241,0.55);
#202=CYLINDRICAL_SURFACE('',#244,5.);
#203=CYLINDRICAL_SURFACE('',#247,0.55);
#204=CYLINDRICAL_SURFACE('',#250,0.5);
#205=CYLINDRICAL_SURFACE('',#253,0.55);
#206=CYLINDRICAL_SURFACE('',#256,5.);
#207=CYLINDRICAL_SURFACE('',#259,0.25);
#208=CYLINDRICAL_SURFACE('',#262,0.25);
#209=ADVANCED_FACE('',(#21),#199,.F.);
#210=ADVANCED_FACE('',(#22),#200,.T.);
#211=ADVANCED_FACE('',(#23),#201,.F.);
#212=ADVANCED_FACE('',(#24),#202,.T.);
#213=ADVANCED_FACE('',(#25),#203,.F.);
#214=ADVANCED_FACE('',(#26),#204,.T.);
#215=ADVANCED_FACE('',(#27),#205,.F.);
#216=ADVANCED_FACE('',(#28),#206,.T.);
#217=ADVANCED_FACE('',(#29),#207,.F.);
#218=ADVANCED_FACE('',(#30),#208,.F.);
#219=ADVANCED_FACE('',(#31,#15,#16),#19,.T.);
#220=ADVANCED_FACE('',(#32,#17,#18),#20,.F.);
#221=CLOSED_SHELL('',(#209,#210,#211,#212,#213,#214,#215,#216,#217,#218,
#219,#220));
#222=DERIVED_UNIT_ELEMENT(#224,1.);
#223=DERIVED_UNIT_ELEMENT(#413,-3.);
#224=(
MASS_UNIT()
NAMED_UNIT(*)
SI_UNIT(.KILO.,.GRAM.)
);
#225=DERIVED_UNIT((#222,#223));
#226=MEASURE_REPRESENTATION_ITEM('density measure',
POSITIVE_RATIO_MEASURE(7850.),#225);
#227=PROPERTY_DEFINITION_REPRESENTATION(#232,#229);
#228=PROPERTY_DEFINITION_REPRESENTATION(#233,#230);
#229=REPRESENTATION('material name',(#231),#408);
#230=REPRESENTATION('density',(#226),#408);
#231=DESCRIPTIVE_REPRESENTATION_ITEM('Steel','Steel');
#232=PROPERTY_DEFINITION('material property','material name',#421);
#233=PROPERTY_DEFINITION('material property','density of part',#421);
#234=AXIS2_PLACEMENT_3D('',#343,#267,#268);
#235=AXIS2_PLACEMENT_3D('',#344,#269,#270);
#236=AXIS2_PLACEMENT_3D('',#347,#271,#272);
#237=AXIS2_PLACEMENT_3D('',#351,#274,#275);
#238=AXIS2_PLACEMENT_3D('',#353,#277,#278);
#239=AXIS2_PLACEMENT_3D('',#355,#279,#280);
#240=AXIS2_PLACEMENT_3D('',#358,#282,#283);
#241=AXIS2_PLACEMENT_3D('',#359,#284,#285);
#242=AXIS2_PLACEMENT_3D('',#361,#286,#287);
#243=AXIS2_PLACEMENT_3D('',#364,#289,#290);
#244=AXIS2_PLACEMENT_3D('',#365,#291,#292);
#245=AXIS2_PLACEMENT_3D('',#367,#293,#294);
#246=AXIS2_PLACEMENT_3D('',#370,#296,#297);
#247=AXIS2_PLACEMENT_3D('',#371,#298,#299);
#248=AXIS2_PLACEMENT_3D('',#373,#300,#301);
#249=AXIS2_PLACEMENT_3D('',#376,#303,#304);
#250=AXIS2_PLACEMENT_3D('',#377,#305,#306);
#251=AXIS2_PLACEMENT_3D('',#379,#307,#308);
#252=AXIS2_PLACEMENT_3D('',#382,#310,#311);
#253=AXIS2_PLACEMENT_3D('',#383,#312,#313);
#254=AXIS2_PLACEMENT_3D('',#385,#314,#315);
#255=AXIS2_PLACEMENT_3D('',#388,#317,#318);
#256=AXIS2_PLACEMENT_3D('',#389,#319,#320);
#257=AXIS2_PLACEMENT_3D('',#390,#321,#322);
#258=AXIS2_PLACEMENT_3D('',#391,#323,#324);
#259=AXIS2_PLACEMENT_3D('',#392,#325,#326);
#260=AXIS2_PLACEMENT_3D('',#394,#327,#328);
#261=AXIS2_PLACEMENT_3D('',#397,#330,#331);
#262=AXIS2_PLACEMENT_3D('',#398,#332,#333);
#263=AXIS2_PLACEMENT_3D('',#400,#334,#335);
#264=AXIS2_PLACEMENT_3D('',#403,#337,#338);
#265=AXIS2_PLACEMENT_3D('',#404,#339,#340);
#266=AXIS2_PLACEMENT_3D('',#405,#341,#342);
#267=DIRECTION('axis',(0.,0.,1.));
#268=DIRECTION('refdir',(1.,0.,0.));
#269=DIRECTION('center_axis',(0.,0.,1.));
#270=DIRECTION('ref_axis',(-0.99797465549862,-0.0636127894562942,0.));
#271=DIRECTION('center_axis',(0.,0.,-1.));
#272=DIRECTION('ref_axis',(-0.99797465549862,-0.0636127894562942,0.));
#273=DIRECTION('',(0.,0.,1.));
#274=DIRECTION('center_axis',(0.,0.,1.));
#275=DIRECTION('ref_axis',(-0.99797465549862,-0.0636127894562942,0.));
#276=DIRECTION('',(0.,0.,-1.));
#277=DIRECTION('center_axis',(0.,0.,1.));
#278=DIRECTION('ref_axis',(1.,0.,0.));
#279=DIRECTION('center_axis',(0.,0.,1.));
#280=DIRECTION('ref_axis',(1.,0.,0.));
#281=DIRECTION('',(0.,0.,-1.));
#282=DIRECTION('center_axis',(0.,0.,1.));
#283=DIRECTION('ref_axis',(1.,0.,0.));
#284=DIRECTION('center_axis',(0.,0.,1.));
#285=DIRECTION('ref_axis',(0.180730545565156,-0.983532648110738,0.));
#286=DIRECTION('center_axis',(0.,0.,-1.));
#287=DIRECTION('ref_axis',(0.180730545565156,-0.983532648110738,0.));
#288=DIRECTION('',(0.,0.,1.));
#289=DIRECTION('center_axis',(0.,0.,1.));
#290=DIRECTION('ref_axis',(0.180730545565156,-0.983532648110738,0.));
#291=DIRECTION('center_axis',(0.,0.,1.));
#292=DIRECTION('ref_axis',(1.,0.,0.));
#293=DIRECTION('center_axis',(0.,0.,1.));
#294=DIRECTION('ref_axis',(1.,0.,0.));
#295=DIRECTION('',(0.,0.,-1.));
#296=DIRECTION('center_axis',(0.,0.,1.));
#297=DIRECTION('ref_axis',(1.,0.,0.));
#298=DIRECTION('center_axis',(0.,0.,1.));
#299=DIRECTION('ref_axis',(-0.180730545565156,-0.983532648110738,0.));
#300=DIRECTION('center_axis',(0.,0.,-1.));
#301=DIRECTION('ref_axis',(-0.180730545565156,-0.983532648110738,0.));
#302=DIRECTION('',(0.,0.,1.));
#303=DIRECTION('center_axis',(0.,0.,1.));
#304=DIRECTION('ref_axis',(-0.180730545565156,-0.983532648110738,0.));
#305=DIRECTION('center_axis',(0.,0.,1.));
#306=DIRECTION('ref_axis',(-0.615252078738413,0.788330438082954,0.));
#307=DIRECTION('center_axis',(0.,0.,1.));
#308=DIRECTION('ref_axis',(1.,0.,0.));
#309=DIRECTION('',(0.,0.,-1.));
#310=DIRECTION('center_axis',(0.,0.,1.));
#311=DIRECTION('ref_axis',(1.,0.,0.));
#312=DIRECTION('center_axis',(0.,0.,1.));
#313=DIRECTION('ref_axis',(0.99797465549862,-0.0636127894562942,0.));
#314=DIRECTION('center_axis',(0.,0.,-1.));
#315=DIRECTION('ref_axis',(0.99797465549862,-0.0636127894562942,0.));
#316=DIRECTION('',(0.,0.,1.));
#317=DIRECTION('center_axis',(0.,0.,1.));
#318=DIRECTION('ref_axis',(0.99797465549862,-0.0636127894562942,0.));
#319=DIRECTION('center_axis',(0.,0.,1.));
#320=DIRECTION('ref_axis',(6.12323399573677E-17,-1.,0.));
#321=DIRECTION('center_axis',(0.,0.,1.));
#322=DIRECTION('ref_axis',(1.,0.,0.));
#323=DIRECTION('center_axis',(0.,0.,1.));
#324=DIRECTION('ref_axis',(1.,0.,0.));
#325=DIRECTION('center_axis',(0.,0.,1.));
#326=DIRECTION('ref_axis',(1.,0.,0.));
#327=DIRECTION('center_axis',(0.,0.,-1.));
#328=DIRECTION('ref_axis',(1.,0.,0.));
#329=DIRECTION('',(0.,0.,-1.));
#330=DIRECTION('center_axis',(0.,0.,-1.));
#331=DIRECTION('ref_axis',(1.,0.,0.));
#332=DIRECTION('center_axis',(0.,0.,1.));
#333=DIRECTION('ref_axis',(1.,0.,0.));
#334=DIRECTION('center_axis',(0.,0.,-1.));
#335=DIRECTION('ref_axis',(1.,0.,0.));
#336=DIRECTION('',(0.,0.,-1.));
#337=DIRECTION('center_axis',(0.,0.,-1.));
#338=DIRECTION('ref_axis',(1.,0.,0.));
#339=DIRECTION('center_axis',(0.,0.,1.));
#340=DIRECTION('ref_axis',(1.,0.,0.));
#341=DIRECTION('center_axis',(0.,0.,1.));
#342=DIRECTION('ref_axis',(1.,0.,0.));
#343=CARTESIAN_POINT('',(0.,0.,0.));
#344=CARTESIAN_POINT('Origin',(4.1789188989394,3.65227830758926,0.));
#345=CARTESIAN_POINT('',(3.76479180084631,3.29034081764798,0.));
#346=CARTESIAN_POINT('',(3.72218895927632,3.9587057251213,0.));
#347=CARTESIAN_POINT('Origin',(4.1789188989394,3.65227830758926,0.));
#348=CARTESIAN_POINT('',(3.72218895927632,3.9587057251213,0.25));
#349=CARTESIAN_POINT('',(3.72218895927632,3.9587057251213,0.));
#350=CARTESIAN_POINT('',(3.76479180084631,3.29034081764798,0.25));
#351=CARTESIAN_POINT('Origin',(4.1789188989394,3.65227830758926,0.25));
#352=CARTESIAN_POINT('',(3.76479180084631,3.29034081764798,0.));
#353=CARTESIAN_POINT('Origin',(3.30697992321897,4.23727610469588,0.));
#354=CARTESIAN_POINT('',(2.93588779978433,4.57237405444307,0.));
#355=CARTESIAN_POINT('Origin',(3.30697992321897,4.23727610469588,0.));
#356=CARTESIAN_POINT('',(2.93588779978433,4.57237405444307,0.25));
#357=CARTESIAN_POINT('',(2.93588779978433,4.57237405444307,0.));
#358=CARTESIAN_POINT('Origin',(3.30697992321897,4.23727610469588,0.25));
#359=CARTESIAN_POINT('Origin',(2.52768646400623,4.94098179916499,0.));
#360=CARTESIAN_POINT('',(2.27719501261823,4.45133495420269,0.));
#361=CARTESIAN_POINT('Origin',(2.52768646400623,4.94098179916499,0.));
#362=CARTESIAN_POINT('',(2.27719501261823,4.45133495420269,0.25));
#363=CARTESIAN_POINT('',(2.27719501261823,4.45133495420269,0.));
#364=CARTESIAN_POINT('Origin',(2.52768646400623,4.94098179916499,0.25));
#365=CARTESIAN_POINT('Origin',(0.,0.,0.));
#366=CARTESIAN_POINT('',(-2.27719501261823,4.45133495420269,0.));
#367=CARTESIAN_POINT('Origin',(0.,0.,0.));
#368=CARTESIAN_POINT('',(-2.27719501261823,4.45133495420269,0.25));
#369=CARTESIAN_POINT('',(-2.27719501261823,4.45133495420269,0.));
#370=CARTESIAN_POINT('Origin',(0.,0.,0.25));
#371=CARTESIAN_POINT('Origin',(-2.52768646400623,4.94098179916499,0.));
#372=CARTESIAN_POINT('',(-2.93588779978433,4.57237405444307,0.));
#373=CARTESIAN_POINT('Origin',(-2.52768646400623,4.94098179916499,0.));
#374=CARTESIAN_POINT('',(-2.93588779978433,4.57237405444307,0.25));
#375=CARTESIAN_POINT('',(-2.93588779978433,4.57237405444307,0.));
#376=CARTESIAN_POINT('Origin',(-2.52768646400623,4.94098179916499,0.25));
#377=CARTESIAN_POINT('Origin',(-3.30697992321897,4.23727610469588,0.));
#378=CARTESIAN_POINT('',(-3.72218895927632,3.9587057251213,0.));
#379=CARTESIAN_POINT('Origin',(-3.30697992321897,4.23727610469588,0.));
#380=CARTESIAN_POINT('',(-3.72218895927632,3.9587057251213,0.25));
#381=CARTESIAN_POINT('',(-3.72218895927632,3.9587057251213,0.));
#382=CARTESIAN_POINT('Origin',(-3.30697992321897,4.23727610469588,0.25));
#383=CARTESIAN_POINT('Origin',(-4.1789188989394,3.65227830758926,0.));
#384=CARTESIAN_POINT('',(-3.76479180084631,3.29034081764798,0.));
#385=CARTESIAN_POINT('Origin',(-4.1789188989394,3.65227830758926,0.));
#386=CARTESIAN_POINT('',(-3.76479180084631,3.29034081764798,0.25));
#387=CARTESIAN_POINT('',(-3.76479180084631,3.29034081764798,0.));
#388=CARTESIAN_POINT('Origin',(-4.1789188989394,3.65227830758926,0.25));
#389=CARTESIAN_POINT('Origin',(0.,0.,0.));
#390=CARTESIAN_POINT('Origin',(0.,0.,0.25));
#391=CARTESIAN_POINT('Origin',(0.,0.,0.));
#392=CARTESIAN_POINT('Origin',(-3.30697992321897,4.23727610469588,0.));
#393=CARTESIAN_POINT('',(-3.55697992321897,4.23727610469588,0.25));
#394=CARTESIAN_POINT('Origin',(-3.30697992321897,4.23727610469588,0.25));
#395=CARTESIAN_POINT('',(-3.55697992321897,4.23727610469588,0.));
#396=CARTESIAN_POINT('',(-3.55697992321897,4.23727610469588,0.));
#397=CARTESIAN_POINT('Origin',(-3.30697992321897,4.23727610469588,0.));
#398=CARTESIAN_POINT('Origin',(3.30697992321897,4.23727610469588,0.));
#399=CARTESIAN_POINT('',(3.05697992321897,4.23727610469588,0.25));
#400=CARTESIAN_POINT('Origin',(3.30697992321897,4.23727610469588,0.25));
#401=CARTESIAN_POINT('',(3.05697992321897,4.23727610469588,0.));
#402=CARTESIAN_POINT('',(3.05697992321897,4.23727610469588,0.));
#403=CARTESIAN_POINT('Origin',(3.30697992321897,4.23727610469588,0.));
#404=CARTESIAN_POINT('Origin',(0.,0.,0.25));
#405=CARTESIAN_POINT('Origin',(0.,0.,0.));
#406=UNCERTAINTY_MEASURE_WITH_UNIT(LENGTH_MEASURE(0.000393700787401575),
#411,'DISTANCE_ACCURACY_VALUE',
'Maximum model space distance between geometric entities at asserted c
onnectivities');
#407=UNCERTAINTY_MEASURE_WITH_UNIT(LENGTH_MEASURE(0.000393700787401575),
#411,'DISTANCE_ACCURACY_VALUE',
'Maximum model space distance between geometric entities at asserted c
onnectivities');
#408=(
GEOMETRIC_REPRESENTATION_CONTEXT(3)
GLOBAL_UNCERTAINTY_ASSIGNED_CONTEXT((#406))
GLOBAL_UNIT_ASSIGNED_CONTEXT((#411,#415,#416))
REPRESENTATION_CONTEXT('','3D')
);
#409=(
GEOMETRIC_REPRESENTATION_CONTEXT(3)
GLOBAL_UNCERTAINTY_ASSIGNED_CONTEXT((#407))
GLOBAL_UNIT_ASSIGNED_CONTEXT((#411,#415,#416))
REPRESENTATION_CONTEXT('','3D')
);
#410=DIMENSIONAL_EXPONENTS(1.,0.,0.,0.,0.,0.,0.);
#411=(
CONVERSION_BASED_UNIT('inch',#414)
LENGTH_UNIT()
NAMED_UNIT(#410)
);
#412=(
LENGTH_UNIT()
NAMED_UNIT(*)
SI_UNIT(.MILLI.,.METRE.)
);
#413=(
LENGTH_UNIT()
NAMED_UNIT(*)
SI_UNIT($,.METRE.)
);
#414=LENGTH_MEASURE_WITH_UNIT(LENGTH_MEASURE(25.4),#412);
#415=(
NAMED_UNIT(*)
PLANE_ANGLE_UNIT()
SI_UNIT($,.RADIAN.)
);
#416=(
NAMED_UNIT(*)
SI_UNIT($,.STERADIAN.)
SOLID_ANGLE_UNIT()
);
#417=SHAPE_DEFINITION_REPRESENTATION(#418,#419);
#418=PRODUCT_DEFINITION_SHAPE('',$,#421);
#419=SHAPE_REPRESENTATION('',(#234),#408);
#420=PRODUCT_DEFINITION_CONTEXT('part definition',#425,'design');
#421=PRODUCT_DEFINITION('(Unsaved)','(Unsaved)',#422,#420);
#422=PRODUCT_DEFINITION_FORMATION('',$,#427);
#423=PRODUCT_RELATED_PRODUCT_CATEGORY('(Unsaved)','(Unsaved)',(#427));
#424=APPLICATION_PROTOCOL_DEFINITION('international standard',
'automotive_design',2009,#425);
#425=APPLICATION_CONTEXT(
'Core Data for Automotive Mechanical Design Process');
#426=PRODUCT_CONTEXT('part definition',#425,'mechanical');
#427=PRODUCT('(Unsaved)','(Unsaved)',$,(#426));
#428=PRESENTATION_STYLE_ASSIGNMENT((#429));
#429=SURFACE_STYLE_USAGE(.BOTH.,#430);
#430=SURFACE_SIDE_STYLE('',(#431));
#431=SURFACE_STYLE_FILL_AREA(#432);
#432=FILL_AREA_STYLE('Steel - Satin',(#433));
#433=FILL_AREA_STYLE_COLOUR('Steel - Satin',#434);
#434=COLOUR_RGB('Steel - Satin',0.627450980392157,0.627450980392157,0.627450980392157);
ENDSEC;
END-ISO-10303-21;
